Loewenzahn: Unterschied zwischen den Versionen

Aus Bjoerns-wiki
Wechseln zu: Navigation, Suche
 
 
Zeile 4: Zeile 4:
 
A||--3--3--3--3--------------|------------------------|
 
A||--3--3--3--3--------------|------------------------|
 
E||--------------------------|------------------------|
 
E||--------------------------|------------------------|
 +
</pre>
  
 
+
<pre>
 
 
 
--------------5--5--5--5--|--3--2----0----------0--|--------------7--7--7--7--|
 
--------------5--5--5--5--|--3--2----0----------0--|--------------7--7--7--7--|
 
--------------------------|---------------2--3-----|--0--0--0--0--------------|
 
--------------------------|---------------2--3-----|--0--0--0--0--------------|
 
--3--3--3--3--------------|------------------------|--------------------------|
 
--3--3--3--3--------------|------------------------|--------------------------|
 
--------------------------|------------------------|--------------------------|
 
--------------------------|------------------------|--------------------------|
 +
</pre>
  
 
+
<pre>
 
 
 
--5--4----2-------0--2--|--------------7--7--7--7--|--5--4----2-------0--2--|
 
--5--4----2-------0--2--|--------------7--7--7--7--|--5--4----2-------0--2--|
 
---------------4--------|--0--0--0--0--------------|---------------4--------|
 
---------------4--------|--0--0--0--0--------------|---------------4--------|
 
------------------------|--------------------------|------------------------|
 
------------------------|--------------------------|------------------------|
 
------------------------|--------------------------|------------------------|
 
------------------------|--------------------------|------------------------|
 +
</pre>
  
 
+
<pre>
 
 
 
--------------5--5--5--5--|--3--2----0----3----5--|--7----7----7---5--3---0---|
 
--------------5--5--5--5--|--3--2----0----3----5--|--7----7----7---5--3---0---|
 
--------------------------|-----------------------|---------------------------|
 
--------------------------|-----------------------|---------------------------|
 
--3--3--3--3--------------|-----------------------|---------------------------|
 
--3--3--3--3--------------|-----------------------|---------------------------|
 
--------------------------|-----------------------|---------------------------|
 
--------------------------|-----------------------|---------------------------|
 +
</pre>
  
 
+
<pre>
 
 
 
----0-------------------|--------------------|-------------------||
 
----0-------------------|--------------------|-------------------||
 
---------0----2-3---2---|--------------------|------------------*||
 
---------0----2-3---2---|--------------------|------------------*||
 
------------------------|--------------------|------------------*||
 
------------------------|--------------------|------------------*||
 
------------------------|--------3----5------|-------------------||
 
------------------------|--------3----5------|-------------------||
 +
</pre>
  
 
+
<pre>
 
 
 
-------------------||
 
-------------------||
 
-------------------||
 
-------------------||
 
-------------------||
 
-------------------||
 
----5--------------||
 
----5--------------||
<pre>
+
</pre>
 
 
 
[[Kategorie:Tabs]]
 
[[Kategorie:Tabs]]

Aktuelle Version vom 26. März 2009, 02:34 Uhr

G||--------------5--5--5--5--|--3--2----0----------0--|
D||--------------------------|---------------2--3-----|
A||--3--3--3--3--------------|------------------------|
E||--------------------------|------------------------|
--------------5--5--5--5--|--3--2----0----------0--|--------------7--7--7--7--|
--------------------------|---------------2--3-----|--0--0--0--0--------------|
--3--3--3--3--------------|------------------------|--------------------------|
--------------------------|------------------------|--------------------------|
--5--4----2-------0--2--|--------------7--7--7--7--|--5--4----2-------0--2--|
---------------4--------|--0--0--0--0--------------|---------------4--------|
------------------------|--------------------------|------------------------|
------------------------|--------------------------|------------------------|
--------------5--5--5--5--|--3--2----0----3----5--|--7----7----7---5--3---0---|
--------------------------|-----------------------|---------------------------|
--3--3--3--3--------------|-----------------------|---------------------------|
--------------------------|-----------------------|---------------------------|
----0-------------------|--------------------|-------------------||
---------0----2-3---2---|--------------------|------------------*||
------------------------|--------------------|------------------*||
------------------------|--------3----5------|-------------------||
-------------------||
-------------------||
-------------------||
----5--------------||