Onkelz wie wir

Aus Bjoerns-wiki
Wechseln zu: Navigation, Suche

Bass

Intro

G||-------|-------|-------|-------|-------|-------|
D||-------|-------|-------|-------|-------|-------|
A||-------|-------|-------|-------|-------|-------|
E||-------|-------|-------|-------|-------|-------|

G||----------------------------------|----------------------------------|
D||--------5---3-2-------------------|--------5---3-2-------------------|
A||--3---------------2-----0---2-----|--3---------------2-----0---2-----|
E||------------------------------3---|------------------------------3---|

G||------------------------7---5-----|----------------------------------|
D||--5-----5---7-5---4-----------7---|--5-----5---7-5---4-----5---5-4---|
A||----------------------------------|----------------------------------|
E||----------------------------------|----------------------------------|

G||------------------------2---0-----|------------------------2---0-----|
D||--0-----4---0-5---2-----------2---|--0-----4---0-5---2-----------2---|
A||----------------------------------|----------------------------------|
E||----------------------------------|----------------------------------|
G||----------------------------------|------------------------------------------|
D||------------------------7---5-----|------------------------------------------|
A||--3-3-3-3-3-3-3-3-3-3-3-------7-2-|--3-3-3-3-3-3-3/15----15-15-15-15-15-15\3-|
E||----------------------------------|------------------------------------------|

G||----------------------------------|----------------------------------|
D||----------------------------------|----------------------------------|
A||--------------------------2---3---|----------------------------------|
E||--5-3---5---5-5-5-5-5-5-5---------|--1---------------3---------------|

Verse 1 + 2

G||----------------------------------|------------------------------------------|
D||------------------------7---5-----|------------------------------------------|
A||--3-3-3-3-3-3-3-3-3-3-3-------7-2-|--3-3-3-3-3-3-3/15----15-15-15-15-15-15\3-|
E||----------------------------------|------------------------------------------|

G||----------------------------------|----------------------------------|
D||----------------------------------|----------------------------------|
A||--------------------------2---3---|----------------------------------|
E||--5-3---5---5-5-5-5-5-5-5---------|--1---------------3---------------|

G||----------------------------------|------------------------------------------|
D||------------------------7---5-----|------------------------------------------|
A||--3-3-3-3-3-3-3-3-3-3-3-------7-2-|--3-3-3-3-3-3-3/15----15-15-15-15-15-15\3-|
E||----------------------------------|------------------------------------------|

G||----------------------------------|---------------------------------|
D||----------------------------------|---------------------------------|
A||--------------------------2---3---|-------------------------5-3-----|
E||--5-3---5---5-5-5-5-5-5-5---------|--1--------------3-----------7-5-|

Refrain

G||----------------------------------|----------------------------------|  |
D||----------------------------------|----------------------------------|  |
A||--7---2-2-2-3---5---5-5-5-5-5-5-5-|--5---5-5-5-3---7---7-7-3-5-3-----|  | 3x
E||----------------------------------|------------------------------7-5-|  |

G||----------------------------------|----------------------------------|
D||----------------------------------|----------------------------------|
A||--7---2-2-2-3---5---5-5-5-5-5-5-5-|--5---5-5-5-3---7-----------------|
E||----------------------------------|----------------------------------|

G||----------|----------------------------------|
D||----------|----------------------------------|
A||----------|----------------------------------|
E||----------|----------------------------------|
G||----------------------------------|----------------------------------|
D||----------------------------------|--5---5---------------------------|
A||--7---7-----------5---5-----------|----------------3---2-3-2-3-2-----|
E||----------------------------------|----------------------------------|

Solo

G||----------------------------------|----------------5---4-5-4-5-4-----|
D||----------------------------------|--5-5-5-5-5-5-5-------------------|
A||--7-7-7-7-7-7-7-7-5-5-5-5-5-5-5-5-|----------------------------------|
E||----------------------------------|----------------------------------|

G||----------------------------------|----------------------------------|
D||----------------------------------|--5-5-5-5-5-5-5-------------------|
A||--7-7-7-7-7-7-7-7-5-5-5-5-5-5-5-5-|----------------3---2-3-2-3-2-----|
E||----------------------------------|----------------------------------|

G||----------------------------------|----------------------------------|
D||----------------------------------|--5-5-5-5-5-5-5-------------------|
A||--7-7-7-7-7-7-7-7-5-5-5-5-5-5-5-5-|----------------3---2-3-2-3-2-----|
E||----------------------------------|----------------------------------|

G||----------------------------------|----------------------------------|
D||----------------------------------|--5-5-5-5-5-5-5-------------------|
A||--7-7-7-7-7-7-7-7-5-5-5-5-5-5-5-5-|----------------3---2-3-2-3-2-----|
E||----------------------------------|----------------------------------|

G||----------------------------------|----------------------------------|
D||----------------------------------|--5---5---------------------------|
A||--7---7-----------5---5-----------|----------------3---2-3-2-3-2---3-|
E||----------------------------------|----------------------------------|

G||----------------------------------|
D||----------------------------------|
A||----2-3-2-3-2---3---2-3-2-3-2-----|
E||----------------------------------|

G||----------------------------------|----------------------------------|
D||----------------------------------|----------------------------------|
A||--7-------------------------------|----------------------------------|
E||----------------------------------|----------------------------------|
G||----------------------------------|------------------------------------------|
D||------------------------7---5-----|------------------------------------------|
A||--3-3-3-3-3-3-3-3-3-3-3-------7-2-|--3-3-3-3-3-3-3/15----15-15-15-15-15-15\3-|
E||----------------------------------|------------------------------------------|

G||----------------------------------|----------------------------------|
D||----------------------------------|----------------------------------|
A||--------------------------2---3---|----------------------------------|
E||--5-3---5---5-5-5-5-5-5-5---------|--1---------------3---------------|

Verse 3 + 4

G||----------------------------------|------------------------------------------|
D||------------------------7---5-----|------------------------------------------|
A||--3-3-3-3-3-3-3-3-3-3-3-------7-2-|--3-3-3-3-3-3-3/15----15-15-15-15-15-15\3-|
E||----------------------------------|------------------------------------------|

G||----------------------------------|----------------------------------|
D||----------------------------------|----------------------------------|
A||--------------------------2---3---|----------------------------------|
E||--5-3---5---5-5-5-5-5-5-5---------|--1---------------3---------------|

G||----------------------------------|------------------------------------------|
D||------------------------7---5-----|------------------------------------------|
A||--3-3-3-3-3-3-3-3-3-3-3-------7-2-|--3-3-3-3-3-3-3/15----15-15-15-15-15-15\3-|
E||----------------------------------|------------------------------------------|

G||----------------------------------|----------------------------------|
D||----------------------------------|----------------------------------|
A||--------------------------2---3---|--------------------------5-3-----|
E||--5-3---5---5-5-5-5-5-5-5---------|--1---------------3-----------7-5-|

Refrain

G||----------------------------------|----------------------------------|  |
D||----------------------------------|----------------------------------|  |
A||--7---2-2-2-3---5---5-5-5-5-5-5-5-|--5---5-5-5-3---7---7-7-3-5-3-----|  | 3x
E||----------------------------------|------------------------------7-5-|  |

G||----------------------------------|----------------------------------|
D||----------------------------------|----------------------------------|
A||--7---2-2-2-3---5---5-5-5-5-5-5-5-|--5---5-5-5-3---7-----------------|
E||----------------------------------|----------------------------------|

G||----------------------------------|
D||----------------------------------|
A||----------------------------------|
E||----------------------------------|

Outro Solo

G||----------------------------------|----------------------------------|
D||----------------------------------|--5-5-5-5-5-5-5-------------------|
A||--7-7-7-7-7-7-7-7-5-5-5-5-5-5-5-5-|----------------3---2-3-2-3-2-----|
E||----------------------------------|----------------------------------|

G||----------------------------------|----------------------------------|
D||----------------------------------|--5-5-5-5-5-5-5-------------------|
A||--7-7-7-7-7-7-7-7-5-5-5-5-5-5-5-5-|----------------3---2-3-2-3-2-----|
E||----------------------------------|----------------------------------|

G||----------------------------------|----------------------------------|
D||----------------------------------|----------------------------------|
A||--3-3-3-3-3-3-3-5---5-5-5-5-5-5-7-|----7-7-7-7-7-7-7-7-7-7-7-7-7-7-3-|
E||----------------------------------|----------------------------------|

G||----------------------------------|----------------------------------|
D||----------------------------------|----------------------------------|
A||----3-3-3-3-3-3-5---5-5-5-5-5-5-7-|----7-7-7-7-7-7-7-7-7-7-7-7-7-7-7-|
E||----------------------------------|----------------------------------|

G||----------------------------------|----------------------------------||
D||----------------------------------|----------------------------------||
A||--3---------------5---------------|--7-------------------------------||
E||----------------------------------|----------------------------------||